Acoustics guitar tabs

Floater
"On The Table"
Acoustics

tabbed by dyingmind@yahoo.com

Tuning: 1/2 step down


-Intro:
e|------------------------------------------------------|
B|------------------------------------------------------|
G|------------------------------------------------------|
D|--7--7-7-7-7--7-7-7-7-7-7/9-9-9-9-9/11-11-11-11-11\---|
A|--0--0-0-0-0--0-0-0-0-0-0-0-0-0-0-0--0--0--0--0--0----|
E|------------------------------------------------------|


e|------------------------------------------------------|
B|------------------------------------------------------|
G|--7--7-7-7-7--7-7-7-7-7-7-6-6-6-6-7-7-7-7-6h7-9-------|
D|--0--0-0-0-0--0-0-0-0-0-0-0-0-0-0-0-0-0-0-0---0-------|
A|------------------------------------------------------|
E|------------------------------------------------------|

-2nd guitar stums these chords:
    A    D
e|-------2-----------------------|
B|--2----3-----------------------|
G|--2----2-----------------------|
D|--2----0-----------------------|
A|--0----------------------------|
E|-------------------------------|

        A                                  D
Yeah you come and you go like a breeze just as fast as you're able
     A                                  D
And the last thing that you would ever do is put your cards on the table
     A                             D
The glow of the neon shows you're only spinning a fable

                 G                D
I know what you are... I know what you are

      A                        D
Why does everywhere that you end up feel so crowded?
 A                               D
Used to think you could find peace but you're starting to doubt it
        A                            D
Tell me, if no one ever hears what you say then why don't you shout it?

                 G                  D
I know what you are... I know what you are

                  G
and it's scaring me to death
          D                        G
I heard you speak aloud your secret shibboleth
        A                        G
All of the wisdom of the ancients won't change what's inside of you
     A                      G
You can close your eyes but that's not gonna take away the view
         D
I know what you are


(ending chords)

A-D

A-D-A-D-A-D-G


(outro same as intro)



Floater
"Lost Patience"
Acoustics

tabbed by dyingmind@yahoo.com
http://www.floatermusic.net

Tune down 1/2 step.

Am            C            G
You love the taste of wine more than the stars shine
           F           E         Am
You start feeling fine again while my heart is breaking

[bass notes: E-G]

Am           C              G
You tell me I'm a fool to love you like I do
          F   E             Am
You've lost your mind. I've lost my patience

[bass notes: A-C]

Dm           G                 Am
Everything you've done while you were having fun
        Em              Am
Everything you said is ringing in my head
Dm             G                Am
No matter where you are you take it all too far
           Em               Am
No matter what you do I won't be there for you

[bass notes: E-G]

Am           c                   G
Then you discover lust and you break your lover's trust
             F     E               Am
Your gold begins to rust. This is the bed you're making
Am           C              G
You tell me I'm a fool to love you like I do
          F       E            Am
You've lost your mind again. I've lost my patience



Floater
"Time Marches On"
Acoustics

tabbed by dyingmind@yahoo.com

Tune down 1/2 step.

CHORDS:
    D    C    G    F    A
e|--2----0----3----1--------|
B|--3----1----3----1----2---|
G|--2----0----0----2----2---|
D|--0----2----0----3----2---|
A|-------3----2----3----0---|
E|------------3----1--------|


Main riff w/ fills:
Chords in (parenthases) means continue strumming.

     D              C                    G    
e|---2------(2)---|---0----(0)---0---(0)--0-----|---3---(3)---3/5--(5)--5\3--0----|
B|---3------(3)---|---1----(1)---0h1-(1)--3p1---|---3---(3)---3/5--(5)--5\3--3----|
G|---2------(2)---|---0----(0)---0---(0)--0-----|---0---(0)---0--------------0----|
D|---0------(0)---|---2----(2)---2---(2)--2-----|---0---(0)-----------------------|
A|----------------|---3----(3)---3---(3)--3-----|---2---(2)-----------------------|
E|----------------|-----------------------------|---3---(3)-----------------------|

  D                C              G
You've taken all that you can take. Time marches on again
  D                C                G
You've broken all that you can break. Time marches on again
  D
Spoken to those who would listen
  c                      G
Taken from those who would give their attention
  C                   C                  G    
You quoted Ecclesiastes and you brought all our hope to its knees
    
[FFFF - FFFF - FF]
  D       A
Ashes to ashes

[FFFF - FFFF - FF]
  D          A
and dust to dust

[FFFF - FFFF - FF]
  D           A
You just keep on hating

[FFFF - FFFF - FF]
  D            A
the whole world if you must

  D  C               G
        If you think that's just

  D                  C              G
Take up that stone and feel its weight. Time marches on again
  D                    C               G
Cry out, "Throw first before it's too late!" Time marches on again
  D                    C            G
Run to the shelter of sarcasm and the shield of permanent grin
  D                    C                      G
Wrapped in your cloak of superiority so thick that that none of that shit can get in

[FFFF - FFFF - FF]
  D       A
Ashes to ashes

[FFFF - FFFF - FF]
  D          A
and dust to dust

[FFFF - FFFF - FF]
  D           A
You just keep on hating

[FFFF - FFFF - FF]
  D            A
the whole world if you must


If you must...

G C D

If you must...

G C D

G    C    D    
Yes everything peaceful
G      C          D
and everyone old and gray
G   C           D
Anyone who dares preach love
G     C         D
and any kind word I say
G     C          D
And any thought of a future
G             C          D
that just might be worth working for
G              C       D
I watch you snicker and label US useless
G    C    D
I was once you before.

D C G

I walked out that door

  D                C             G        
You've taken all that you can take. Time marches on again
  D                C            G
You've broken all that you can break. Time marches on again



Floater
"Out of Sight"
Acoustics

tabbed by dyingmind@yahoo.com


Drop D tuning, down 1/2 step.

CHORDS:

    Am  C  Dm  C/B  G5  F5  D5
e|---0--0---1---0---------------|
B|---1--1---3---1---------------|
G|---2--0---2---0---------------|
D|---2--2---0---0---5---3---0---|
A|---0--3-------2---5---3---0---|
D|------------------5---3---0---|


   Am                      C
Looking back across the years through a million unshed tears
   Dm                Am
How could I have held them all?
   Am                       C
Oh the price that I have paid for all the love I never made
   Dm            Am
Someone wrote up on the wall:

C    C/B      Am
"How mighty is my pen...

C        C/B           Am
if this is everywhere it's been?"

Dm                   Am
Yes the wine's delicious, but I'm needing something stronger

Dm                   Am
I'm growing suspicious that I won't be here much longer

C        C/B      Am
Feels like I'm going down again.
C        C/B         Am
Feels like I've lost my only friend

[Bass notes:]
e|------------------------------|
B|------------------------------|
G|------------------------------|
D|------------------------------|
A|----3--------5-----3-----0----|
D|--------3---------------------|

  Am                        C
Crawling home from some saloon and all my strings are out of tune
  Dm                 Am
No one's around to break my fall
  Am                 C
No attempt was ever made, so I slowly decayed
  Dm                       Am
Have a little faith in me, that's all
  C   C/B       Am   C            C/B           Am    
"How mighty am I then, if this is everywhere I've been
  Dm                      Am
And as the daylight broke I cast no shadow on on the wall
  Dm                    Am
I will disintegrate until there's nothing left at all
  C        C/B       Am      C         C/B        Am
Feels like I'm going down again. Feels like I've lost my only friend

c  c/B

                G5
And I never thought I'd see the day

F5        D5        G5
My heroes all became psychotics
   F5        D5        G5
My drugs are all expensive exotics
   F5            D5    G5
My blood is thick with antibiotics
     F5               D5        G5
So I toss the coin to fate, it's only right
F5         D5        G5
Take no blame so I can sleep so tight
          F5         D5              
You know that out of mind is also out of sight

C C/B Am (x2)

Dm                Am
As the daylight broke I cast no shadow on on the wall
Dm                     Am
I pass the closed apartment doors in rows along the hall
C        C/B       Am
Feels like I'm going down again.
C        C/B          Am
Feels like I've lost my only friend



Floater
"Hard Parting"
Acoustics

tabbed by dyingmind@yahoo.com

Tune down 1/2 step.


Main verse:

     G        C       C        D
e|---------------------------------------|
B|-------3--------1-------1--------3-----|
G|-----0---0----0---0---0---0----2---2---|
D|-----------------------------0---------|
A|------------3-------3------------------|
E|---3-----------------------------------|

G      C        C    D
Rain was falling when I woke up today
G      C      C           D
Making liquid shadows on the walls
G          C             C        D
I watch you dreams flutter across your face
G       C      C     D    G    
    Why am I always going away?

Em    F      D    G
All the chemicals in my brain.
Em     F           D    G
All this pleasure and all this pain.
Em     F    D       G
The meaning I seek in the end
Em     F    D    G
is coming back to you again

c D

G           C         C         D
Hope nothing changes when I walk in the room
G          C            C           D
Hope no one sees the loneliness in my face
G      C          C          D
How can there be so much solitude
G    C    C      D      G
    In such a crowded place?


Em    F      D    G
All the chemicals in my brain.
Em     F           D    G
All this pleasure and all this pain.
Em     F    D       G
The meaning I seek in the end
Em     F    D    G
is coming back to you again

C D G



Floater
"The Golden Age"
Acoustics

tabbed by dyingmind@yahoo.com

Tune down 1/2 step.


Main verse:
G - G - D - D

The Golden Age of happiness behind us
Now we see the vultures on the wing
Ancient songs of hope always remind us
So we all tune in to hear our leaders sing
    
A                        D
And we know the words to sing because they told us
A                       D
But the generals and the billionaires all know
A                      D
We'll be buried under the dead land they sold us

          F               C
And there's always something wrong
        G
still we sing along
            D
How could we all be so wrong?

Still we sing along


[Repeat verse & chorus sections]

It's a poison communion we're all receiving
While the families of the victims write the books
There might just be one word that's worth believing
When the people give their leaders wicked looks



Floater
"Accepted"
Acoustics

tabbed by dyingmind@yahoo.com


Tune down 1/2 step.


CHORDS:
    Gmaj    G    Am    F    E    C    Dm
e|-------3------3--------0------1-------0-------0-------1-------|
B|-------3------3--------1------1-------0-------1-------3-------|
G|-------0------4--------2------2-------1-------0-------2-------|
D|-------0------5--------2------3-------2-------2-------0-------|
A|-------2------5--------0------3-------2-------3---------------|
E|-------3------3---------------1-------0-----------------------|


Am       Gmaj            F E           F G E
I always accepted that you'd be better than all of this
Am        Gmaj            F E     F G E
I never made promises I couldn't keep
Am        Gmaj            F E          F G E
As you stood before me deciding that I was an open book
AM            Gmaj                F E             F G E
Something made you think you'd read all my dirty little pages

Cover and all


Am        Gmaj             F E        F G E
Is my apology accepted for all the whiskey that ended up in your face?
Am       Gmaj            F E     F G E
I never really was much of a diplomat
Am        Gmaj              F E         F G E
Now as you lay before me deciding that I am an open book
Am            Gmaj              F E              F G E
One never knows when an unforseen mood could take over and darken my eye


C                     Dm
Oh I could fall on my knees and I could learn to beg
C                         Dm                  C
But I will not repent for nothing No matter what you say or what you said
       E
I make my own bed



Floater
"Accepted" (solo)
Acoustics

Transcribed by Lucas S.


Gtr I (Eb Ab Db Gb Bb Eb)

 4/4
  Gtr I
|---------------------------------3-----3-----3-----3S5-------------|
|-------------------------------------------------------------------|
|---4-5-5S7-5-4-4h5-------4h5-4h5---4-5---4-5---4-5------5-5-5-5S7--|
|-7-----------------7-7-7-------------------------------------------|
|-------------------------------------------------------------------|
|-------------------------------------------------------------------|


|-----------------------------------------------------------------------------|
|-----------------------------------------------------------------------------|
|-7-7-7S9-9-9-9----10-10-10-10p9-12p10-10p9-12p10-9S7-2-----------------------|
|-------------------------------------------------------6-7--7-7-7S9-9-9-9S10-|
|-----------------------------------------------------------------------------|
|-----------------------------------------------------------------------------|


|----------------------------------|
|----------------------------------|
|----------------------------------|
|-10-10-10S12-12-12S14-14-14-14----|
|----------------------------------|
|----------------------------------|



Floater
"Bound For Glory"
Acoustics

tabbed by dyingmind@yahoo.com

Tune down 1/2 step.


CHORDS:

    Bm      A     G6     Amaj9  F#7sus4   C5  A#5  A5
e|--7-----5------0--------0-------0--------------------|
B|--7-----5------0--------0-------0--------------------|
G|--7-----6------4--------6-------3--------------------|
D|--9-----7------5--------7-------4------5----3----2---|
A|--9-----7------5--------7-------4------3----1----0---|
E|--7-----5------3--------5-------2--------------------|


Verse riff:
Bm Bm A - Bm Bm A

If you can't break the rules, don't play the game
The silence that you crave will come around too often
When you're the only one whose left to blame
You gather up the baggage for your coffin

        G6              Amaj9              G6          F#7sus4  
And in the bright lights of the restaurant where nothing seems to fade
     G6          Amaj9               G6    F#7sus4
You can feel the crushing weight of all the promises you made that can't be true


Verse riff:
Bm Bm A - Bm Bm A

The stranger on the highway seems to show
Desire to move on in one direction
Trouble is you've got no place to go
Still somehow you know there's a connection

        G6             Amaj9          G6           F#7sus4  
And in the headlights of the passing cars the fear all fades away
   G6        Amaj9              G6         F#7sus4  
An Eastern glow directs you to the coming of the day that's meant for you


[bridge]

A5 - C5 - A#5 - A5

A5   C5             A#5          A5
The sounds from all around they tell the story
     C5            A#5            A5
The game is played the choice you made you're bound for glory

C5 - A#5 - A5

You're bound for it...


[Repeat 1st verse & chorus]



Floater
"Strychnine"
Acoustics

tabbed by dyingmind@yahoo.com

Tune down 1/2 step.

intro
e|-------------------------------------|
B|-------------------12-12-13\---------|
G|--11-11-12\--5-5----0--0--0---12-----|
D|---0--0--0---0-0---------------0-----|
A|-------------------------------------|
E|-------------------------------------|

    D              C           G         D    
I dreamed I saw the ocean and you upon the shore
   D           C         G            D
I knew you were waiting to feel something more
      D             C            G              D
I said, "All of this is ours my love. Come and swim into my stars my love."

     D        C            G     D
And we walked into the joint like we owned the place
      D             C            G    D
And we learned to hold our heads up high in disgrace
   D              C      G            D
Laughing from the power lines, racing through the landmines
  D            C        G                D    
Never a moment of doubt, dancing through the slaughterhouse

    C                       D
Stumbling through pleasures much too fast
  C                         D
White knuckle that is golden and strychnine past
  C           A
Youth is just a treasure...

    A     A#   A    G      A
e|-----|-----------------------|
B|-----|-----------------------|
G|--6--|--7----6----4-----6----|
D|--7--|--8----7----5-----7----| (play 2x)
A|--7--|--8----7----5-----7----|
E|--5--|--6----5----3-----5----|

            D
...that won't last

    D            C            G              D
We recklessly ran, so much stronger than the places we'd gone or the waves we rode upon
     D        C                G            D
And we shined on despite all the laws, And we poured our guts into the cause
      D          C           G
And we learned all that burns cannot last

    C                    D
Stumbling through our borders much too fast
  C                      D
White knuckle that golden and strychnine past
  C           A
Youth is just a torture...

    A     A#   A    G      A
e|-----|-----------------------|
B|-----|-----------------------|
G|--6--|--7----6----4-----6----|
D|--7--|--8----7----5-----7----| (play 2x)
A|--7--|--8----7----5-----7----|
E|--5--|--6----5----3-----5----|

            D



Floater
"The Misfit's Song"
Acoustics

tabbed by dyingmind@yahoo.com

(E) 07999x
(D) x5777x
(A) 577655
(C) x3555x


Intro: E D A A

           E    D                A  
So what's left to say?     By now all words have been spoken
         E    D              A
What is there to do? Everything has already been done
        E    D        A
Who should I fight? Everyone's been defeated
        E    D              A
What should I sing? By now it's already been sung.
  E             D              A
Seems no matter how hard I try, I can't belong
    E        D                A
These molds that I try to break, they are too strong
 E           D            A
Life cannot always be wine, women and song
 E             D              A
Seems no matter how hard I try I can't belong

         E                D
        Make your mistakes, but steer clear of the brakes
         C        A
        Godspeed to another world
         E                D
        A search on the wing is a dangerous thing
         C                  A    
        If you shift your focus to another world
         E         D
        Take heed, watch what you seek
         C            A
        Everything's here, in other words

           E        D        A
Who should I love? Is there only one answer?
          E    D            A    
Where is there to go, if by now we've been everywhere?
                  E                D            A
Always looking to get out, looking to get in and I'm caught between one or the other
          E            D                       A
Falling to pieces, all I believe in swirling, curling down the drain


  E             D                 A
Seems no matter how hard I try, I'm always wrong
    E        D                A
These molds that I try to break, they are too strong

         E                D
        Make your mistakes, but steer clear of the brakes
         C        A
        Godspeed to another world
         E                D
        A search on the wing is a dangerous thing
         C                  A    
        If you shift your focus to another world
         E         D
        Take heed, watch what you seek
         C            A
        Everything's here, in other words



Floater
"Evangeline"
Acoustics

tabbed by Lotusage8@aol.com


-piano arranged for guitar
 -standard tuning

         Verse                                  Chorus                               Interlude   
    Am-------------E                     Am--------C---------G-------Dm                Dm-------E

el--0--------------0                    -0---------0---------3--------1                -1-------0
bl--1--------------0                    -1---------1---------3--------3                -3-------0
gl--2--------------1                    -2---------0---------0--------2                -2-------1
dl--2--------------2                    -2---------2---------0--------0                -0-------2
al--0--------------2                    -0---------3---------2--------x                -x-------2
El--x--------------0                    -x-------------------3---------                ---------0

      The interlude progresses back to chorus chords for piano solo